CHÁT VỚI CHÚNG TÔI - (Click here)

  038 352 0850  Guitar giá rẻ nhất Hà Nội

hợp âm cô bé mùa đông - Cực dễ cho người mới tập tán gái

Post Giúp đọc đoạn intro Cô bé mùa đông
----------------------------------------------------0----0/1---0---------------------------
----------0---1--------0----1----3----------------------------------3-----1-------------------
------2------------2---------------------0--------------------------------0--------------
--2-----------3-----------------------0-----0---------------------------------------------
----------------------------------------------------3---------------------------------
----------------------------------3--------------------------------------------------------



----------------------------------------------------0-------------------0---------------
----------0---1--------0----1----3----------------------------------------------------------
------2------------2---------------------0-------------------0---------------------------
--2-----------3-----------------------0-----0------------2-------2--------------------------
----------------------------------------------------3---------------------------------
----------------------------------3--------------------------------------------------------



----------------------------------------------------0----0/1---0---------------------------
----------0---1--------0----1----3----------------------------------3-----1-------------------
------2------------2---------------------0--------------------------------0--------------
--2-----------3-----------------------0-----0---------------------------------------------
----------------------------------------------------3---------------------------------
----------------------------------3--------------------------------------------------------



-------------------------------------------------------------------------------5------
----------0---1--------0--------0------------0--------------------0/1---------5---------------
------2------------2-------2-------------0----------2--------2----------------5----------
--2-----------3-----------------------0------------------2------------------------------
-----------------------------------------------------0--------------------------------
--------------------------------3----------------------------------------------------------



Verse
------------Am---------- Em---------F----------------- C
Từng cơn gió khẽ vô tình, chiếc lá lìa cành, rơi xuống lòng đường

-------------------Am----------Em--------F----------------G
ngồi nhặt chiếc lá tôi nhớ về, cô bé đáng iu của tôi

--------------Am------------Em----------F-----------------------C
mùa đông đến, em vẫn cười, em ước nguyện là, bông tuyết ngoài trời

--------------- Am----------------E m ---------------F--------- E7 (G)
để được bay mãi lên thiên đường, 1 thiên đường tuyết rơi...........
 
Để xem thêm các tài liệu hay của guitar Cầu Giấy hoặc đặt câu hỏi trực tiếp với chúng tôi tại Fandpage: 

shopguitarcaugiay.com

 
Guitar giá rẻ chất lượng cao

Điện thoại: 0168 352 0850

Địa chỉ: 17, Phạm Tuấn Tài, Phường Dịch Vọng, Quận Cầu Giấy, Hà Nội

Mạng xã hội

 Facebook

circle, color, youtube icon Youtube

circle, color, google icon Google +

Facebook